Can You Feel The Love Tonight Chords (ver 5) by Elton John

36 downloads 87 Views 12KB Size Report
Can be turned away. G#. D#. An enchanted moment. G#. D#. And it sees me through. G#. Cm. It's enough for this restless warrior. C#. A#. Just to be with you.

Side 1 av 3

Can You Feel The Love Tonight Chords (ver 5) by Elton John + | | | | | +

--------------------------------------------------------------------- + Ultimate Guitar Tabs Archive - your #1 source for tabs! | http://www.ultimate-guitar.com/ | | Over 300,000 guitar, guitar pro and bass tabs! Also lessons, news, | columns and guitar forums! | --------------------------------------------------------------------- +

Artist: Elton John Song: Can You Feel The Love Tonight Elton John – Can You Feel The Love Tonight Tabbed by Charlie Banks Any corrections - [email protected] but I think it's almost 100% right.

Capo on the third EADGBE Standard Tuning ===============================================

Intro: ======== D#

|

A#/D

|

G#/D#

|

D#/A#

|

G#

|

D#/G

|

A#/D

|

D#/G

|

A#/D

D#

|

Fm7

D#/G

Verse 1: ============ G# D# There's a calm surrender G# D# To the rush of day G# D# When the heat of the rolling world Fm7 A# Can be turned away G# D# An enchanted moment G# D# And it sees me through G# Cm It's enough for this restless warrior C# A# Just to be with you

Chorus: ========== D# A#/D Cm G# And can you feel the love tonight? D#

G# F A# It is where we are

G#

D# Cm D# G# It's enough for this wide-eyed wanderer

Fm D# G# F A# That we got this far D# A#/D Cm G# And can you feel the love tonight? D#

G# F A# How it's laid to rest?

G#

D# Cm D# G# It's enough to make kings and vagabonds

Fm D# Believe the

G# G#/D# D# ve - ry best

Interlude: ============ D#

|

A#/D

|

G#/D#

Verse 2: ========== G#

D#

|

D#/A#

|

G#

D#

|

Fm7

D#/G|

Side 2 av 3 There's a time for everyone G# D# If they only learn G# D# That the twisting kaleidoscope Fm A# Moves us all in turn G# D# There's a rhyme and reason G# D# To the wild outdoors G# Cm When the heart of this star-crossed voyager C# A# Beats in time with yours

Chorus: ========= D# A#/D Cm G# And can you feel the love tonight? D#

G# F A# It is where we are

G#

D# Cm D# G# It's enough for this wide-eyed wanderer

Fm D# G# F A# That we got this far D# A#/D Cm G# And can you feel the love tonight? D#

G# F A# How it's laid to rest?

G#

D# Cm D# G# It's enough to make kings and vagabonds

Fm D# Believe the

G# G#/D# D# ve - ry best

Ending (slow): ================== G#

D# Cm D# G# It's enough to make kings and vagabonds

Fm D# Believe the

G# G#/D# D# ve - ry best

END +--------------------------------------------------------------------------+ | This file is the author's own work and represents their interpretation | | of the song. You may only use this file for private study, scholarship, | | or research. | +--------------------------------------------------------------------------+ Ultimate-Guitar.Com © 2010 Show/hide chords diagrams

Add more chord diagrams to the list:

Side 3 av 3 Fm E B G D A E

|-1-|---|---|---|---| |-1-|---|---|---|---| |-1-|---|---|---|---| |-1-|---|-4-|---|---| |-1-|---|-3-|---|---| |-1-|---|---|---|---| 1 fr.

F o o o o o o

E B G D A E

Cm E B G D A E

|-1-|---|-3-|---|---| |-1-|---|---|---|---| |-1-|---|---|---|-4-| |-1-|---|---|---|---| |-1-|---|-2-|---|---| |---|---|---|---|---| 1 fr.

|-1-|---|---|---|---| |-1-|---|---|---|---| |-1-|---|---|---|---| |-1-|---|---|---|---| |-1-|---|-2-|---|---| |-1-|---|---|---|---| 1 fr.

o o o o o x

E B G D A E

|---|---|-3-|---|---| |---|---|---|-4-|---| |---|---|-2-|---|---| |-1-|---|---|---|---| |---|---|---|---|---| |---|---|---|---|---| 1 fr.

E B G D A E

|---|---|-3-|---|---| |---|---|---|-4-|---| |---|---|-2-|---|---| |-1-|---|---|---|---| |---|---|---|---|---| |---|---|---|---|---| 1 fr.

E B G D A E

|-1-|---|---|---|---| |-1-|---|-4-|---|---| |-1-|---|-3-|---|---| |-1-|---|-2-|---|---| |-1-|---|---|---|---| |---|---|---|---|---| 1 fr.

o o o o o o

E B G D A E

|---|---|-3-|---|---| |---|---|---|-4-|---| |---|---|-2-|---|---| |-1-|---|---|---|---| |---|---|---|---|---| |---|---|---|---|---| 1 fr.

o o o o o x

E B G D A E

D# o o o o x x

E B G D A E

|-1-|---|---|-4-|---| |-1-|---|---|---|---| |-1-|---|---|---|---| |-1-|---|---|---|---| |-1-|---|-2-|---|---| |-1-|---|---|-3-|---| 1 fr.

o o o o o x

|---|---|-3-|---|---| |---|---|---|---|---| |---|---|---|---|---| |---|---|---|---|---| |---|-1-|---|---|---| |---|---|-2-|---|---|

o o o o o o

G# o o o o x x

E B G D A E

G#/D# o o o o x x

|-1-|---|---|---|---| |-1-|-2-|---|---|---| |-1-|---|---|---|---| |-1-|---|-3-|---|---| |-1-|---|---|-4-|---| |---|---|---|---|---| 1 fr.

G

D#/G

D#/A# E B G D A E

o o o o o o

A#

Fm7 E B G D A E

|-1-|---|---|---|---| |-1-|---|---|---|---| |-1-|-2-|---|---|---| |-1-|---|-4-|---|---| |-1-|---|-3-|---|---| |-1-|---|---|---|---| 1 fr.

C#

|-1-|---|---|-4-|---| |-1-|---|---|---|---| |-1-|---|---|---|---| |-1-|---|---|---|---| |-1-|---|-2-|---|---| |-1-|---|---|-3-|---| 1 fr.

o o o o o o

A#/D o o o o o o

E B G D A E

|-1-|---|---|---|---| |-1-|---|-4-|---|---| |-1-|---|-3-|---|---| |-1-|---|-2-|---|---| |-1-|---|---|---|---| |---|---|---|---|---| 1 fr.

o o o o o x